  0
SECTION
  2
HEADER
  9
$ACADVER
  1
AC1015
  9
$ACADMAINTVER
 70
     6
  9
$DWGCODEPAGE
  3
ANSI_1254
  9
$INSBASE
 10
0.0
 20
0.0
 30
0.0
  9
$EXTMIN
 10
0.0
 20
0.0
 30
0.0
  9
$EXTMAX
 10
279.4
 20
215.9
 30
0.0
  9
$LIMMIN
 10
0.0
 20
0.0
  9
$LIMMAX
 10
279.4
 20
215.9
  9
$ORTHOMODE
 70
     0
  9
$REGENMODE
 70
     1
  9
$FILLMODE
 70
     1
  9
$QTEXTMODE
 70
     0
  9
$MIRRTEXT
 70
     1
  9
$LTSCALE
 40
1.0
  9
$ATTMODE
 70
     1
  9
$TEXTSIZE
 40
3.5
  9
$TRACEWID
 40
1.0
  9
$TEXTSTYLE
  7
Standard
  9
$CLAYER
  8
0
  9
$CELTYPE
  6
ByLayer
  9
$CECOLOR
 62
   256
  9
$CELTSCALE
 40
1.0
  9
$DISPSILH
 70
     0
  9
$DIMSCALE
 40
1.0
  9
$DIMASZ
 40
3.5
  9
$DIMEXO
 40
1.0
  9
$DIMDLI
 40
3.75
  9
$DIMRND
 40
0.0
  9
$DIMDLE
 40
0.0
  9
$DIMEXE
 40
1.0
  9
$DIMTP
 40
0.0
  9
$DIMTM
 40
0.0
  9
$DIMTXT
 40
3.5
  9
$DIMCEN
 40
2.5
  9
$DIMTSZ
 40
0.0
  9
$DIMTOL
 70
     0
  9
$DIMLIM
 70
     0
  9
$DIMTIH
 70
     1
  9
$DIMTOH
 70
     1
  9
$DIMSE1
 70
     0
  9
$DIMSE2
 70
     0
  9
$DIMTAD
 70
     1
  9
$DIMZIN
 70
     0
  9
$DIMBLK
  1

  9
$DIMASO
 70
     1
  9
$DIMSHO
 70
     1
  9
$DIMPOST
  1

  9
$DIMAPOST
  1

  9
$DIMALT
 70
     0
  9
$DIMALTD
 70
     3
  9
$DIMALTF
 40
0.0393700787
  9
$DIMLFAC
 40
1.0
  9
$DIMTOFL
 70
     1
  9
$DIMTVP
 40
0.0
  9
$DIMTIX
 70
     0
  9
$DIMSOXD
 70
     0
  9
$DIMSAH
 70
     0
  9
$DIMBLK1
  1

  9
$DIMBLK2
  1

  9
$DIMSTYLE
  2
ISO-25
  9
$DIMCLRD
 70
     0
  9
$DIMCLRE
 70
     0
  9
$DIMCLRT
 70
     0
  9
$DIMTFAC
 40
1.0
  9
$DIMGAP
 40
1.524
  9
$DIMJUST
 70
     0
  9
$DIMSD1
 70
     0
  9
$DIMSD2
 70
     0
  9
$DIMTOLJ
 70
     0
  9
$DIMTZIN
 70
     0
  9
$DIMALTZ
 70
     0
  9
$DIMALTTZ
 70
     0
  9
$DIMUPT
 70
     0
  9
$DIMDEC
 70
     2
  9
$DIMTDEC
 70
     2
  9
$DIMALTU
 70
     2
  9
$DIMALTTD
 70
     3
  9
$DIMTXSTY
  7
Standard
  9
$DIMAUNIT
 70
     0
  9
$DIMADEC
 70
     2
  9
$DIMALTRND
 40
0.0
  9
$DIMAZIN
 70
     0
  9
$DIMDSEP
 70
    44
  9
$DIMATFIT
 70
     3
  9
$DIMFRAC
 70
     0
  9
$DIMLDRBLK
  1

  9
$DIMLUNIT
 70
     2
  9
$DIMLWD
 70
    -2
  9
$DIMLWE
 70
    -2
  9
$DIMTMOVE
 70
     0
  9
$LUNITS
 70
     2
  9
$LUPREC
 70
     2
  9
$SKETCHINC
 40
1.0
  9
$FILLETRAD
 40
10.0
  9
$AUNITS
 70
     0
  9
$AUPREC
 70
     2
  9
$MENU
  1
.
  9
$ELEVATION
 40
0.0
  9
$PELEVATION
 40
0.0
  9
$THICKNESS
 40
0.0
  9
$LIMCHECK
 70
     0
  9
$CHAMFERA
 40
0.0
  9
$CHAMFERB
 40
0.0
  9
$CHAMFERC
 40
0.0
  9
$CHAMFERD
 40
0.0
  9
$SKPOLY
 70
     0
  9
$TDCREATE
 40
2458985.699308171
  9
$TDUCREATE
 40
2458985.574308171
  9
$TDUPDATE
 40
2458985.699308449
  9
$TDUUPDATE
 40
2458985.574308449
  9
$TDINDWG
 40
0.0000000116
  9
$TDUSRTIMER
 40
0.0000000116
  9
$USRTIMER
 70
     1
  9
$ANGBASE
 50
0.0
  9
$ANGDIR
 70
     0
  9
$PDMODE
 70
     0
  9
$PDSIZE
 40
-1.0
  9
$PLINEWID
 40
0.0
  9
$SPLFRAME
 70
     0
  9
$SPLINETYPE
 70
     6
  9
$SPLINESEGS
 70
     8
  9
$HANDSEED
  5
ED
  9
$SURFTAB1
 70
     6
  9
$SURFTAB2
 70
     6
  9
$SURFTYPE
 70
     6
  9
$SURFU
 70
     6
  9
$SURFV
 70
     6
  9
$UCSBASE
  2

  9
$UCSNAME
  2

  9
$UCSORG
 10
0.0
 20
0.0
 30
0.0
  9
$UCSXDIR
 10
1.0
 20
0.0
 30
0.0
  9
$UCSYDIR
 10
0.0
 20
1.0
 30
0.0
  9
$UCSORTHOREF
  2

  9
$UCSORTHOVIEW
 70
     0
  9
$UCSORGTOP
 10
0.0
 20
0.0
 30
0.0
  9
$UCSORGBOTTOM
 10
0.0
 20
0.0
 30
0.0
  9
$UCSORGLEFT
 10
0.0
 20
0.0
 30
0.0
  9
$UCSORGRIGHT
 10
0.0
 20
0.0
 30
0.0
  9
$UCSORGFRONT
 10
0.0
 20
0.0
 30
0.0
  9
$UCSORGBACK
 10
0.0
 20
0.0
 30
0.0
  9
$PUCSBASE
  2

  9
$PUCSNAME
  2

  9
$PUCSORG
 10
0.0
 20
0.0
 30
0.0
  9
$PUCSXDIR
 10
1.0
 20
0.0
 30
0.0
  9
$PUCSYDIR
 10
0.0
 20
1.0
 30
0.0
  9
$PUCSORTHOREF
  2

  9
$PUCSORTHOVIEW
 70
     0
  9
$PUCSORGTOP
 10
0.0
 20
0.0
 30
0.0
  9
$PUCSORGBOTTOM
 10
0.0
 20
0.0
 30
0.0
  9
$PUCSORGLEFT
 10
0.0
 20
0.0
 30
0.0
  9
$PUCSORGRIGHT
 10
0.0
 20
0.0
 30
0.0
  9
$PUCSORGFRONT
 10
0.0
 20
0.0
 30
0.0
  9
$PUCSORGBACK
 10
0.0
 20
0.0
 30
0.0
  9
$USERI1
 70
     0
  9
$USERI2
 70
     0
  9
$USERI3
 70
     0
  9
$USERI4
 70
     0
  9
$USERI5
 70
     0
  9
$USERR1
 40
0.0
  9
$USERR2
 40
0.0
  9
$USERR3
 40
0.0
  9
$USERR4
 40
0.0
  9
$USERR5
 40
0.0
  9
$WORLDVIEW
 70
     1
  9
$SHADEDGE
 70
     3
  9
$SHADEDIF
 70
    70
  9
$TILEMODE
 70
     1
  9
$MAXACTVP
 70
    64
  9
$PINSBASE
 10
0.0
 20
0.0
 30
0.0
  9
$PLIMCHECK
 70
     0
  9
$PEXTMIN
 10
1.0000000000E+20
 20
1.0000000000E+20
 30
1.0000000000E+20
  9
$PEXTMAX
 10
-1.0000000000E+20
 20
-1.0000000000E+20
 30
-1.0000000000E+20
  9
$PLIMMIN
 10
0.0
 20
0.0
  9
$PLIMMAX
 10
420.0
 20
297.0
  9
$UNITMODE
 70
     0
  9
$VISRETAIN
 70
     1
  9
$PLINEGEN
 70
     0
  9
$PSLTSCALE
 70
     1
  9
$TREEDEPTH
 70
  3020
  9
$CMLSTYLE
  2
Standard
  9
$CMLJUST
 70
     0
  9
$CMLSCALE
 40
20.0
  9
$PROXYGRAPHICS
 70
     1
  9
$MEASUREMENT
 70
     1
  9
$CELWEIGHT
370
    -1
  9
$ENDCAPS
280
     0
  9
$JOINSTYLE
280
     0
  9
$LWDISPLAY
290
     1
  9
$INSUNITS
 70
     4
  9
$HYPERLINKBASE
  1

  9
$STYLESHEET
  1

  9
$XEDIT
290
     1
  9
$CEPSNTYPE
380
     0
  9
$PSTYLEMODE
290
     1
  9
$FINGERPRINTGUID
  2
{daa420f1-46c9-479b-bbfa-65d0c5f5b950}
  9
$VERSIONGUID
  2
{FAEB1C32-E019-11D5-929B-00C0DF256EC4}
  9
$EXTNAMES
290
     1
  9
$PSVPSCALE
 40
0.0
  9
$OLESTARTUP
290
     0
  0
ENDSEC
  0
SECTION
  2
CLASSES
  0
CLASS
  1
ACDBDICTIONARYWDFLT
  2
AcDbDictionaryWithDefault
  3
ObjectDBX Classes
 90
        0
280
     0
281
     0
  0
CLASS
  1
VISUALSTYLE
  2
AcDbVisualStyle
  3
ObjectDBX Classes
 90
     4095
280
     0
281
     0
  0
CLASS
  1
MATERIAL
  2
AcDbMaterial
  3
ObjectDBX Classes
 90
     1153
280
     0
281
     0
  0
CLASS
  1
SCALE
  2
AcDbScale
  3
ObjectDBX Classes
 90
     1153
280
     0
281
     0
  0
CLASS
  1
TABLESTYLE
  2
AcDbTableStyle
  3
ObjectDBX Classes
 90
     4095
280
     0
281
     0
  0
CLASS
  1
MLEADERSTYLE
  2
AcDbMLeaderStyle
  3
ACDB_MLEADERSTYLE_CLASS
 90
     4095
280
     0
281
     0
  0
CLASS
  1
SUN
  2
AcDbSun
  3
SCENEOE
 90
     1153
280
     0
281
     0
  0
CLASS
  1
ACDBPLACEHOLDER
  2
AcDbPlaceHolder
  3
ObjectDBX Classes
 90
        0
280
     0
281
     0
  0
CLASS
  1
LAYOUT
  2
AcDbLayout
  3
ObjectDBX Classes
 90
        0
280
     0
281
     0
  0
ENDSEC
  0
SECTION
  2
TABLES
  0
TABLE
  2
VPORT
  5
8
330
0
100
AcDbSymbolTable
 70
     1
  0
VPORT
  5
29
330
8
100
AcDbSymbolTableRecord
100
AcDbViewportTableRecord
  2
*Active
 70
     0
 10
0.0
 20
0.0
 11
1.0
 21
1.0
 12
139.7
 22
107.95
 13
0.0
 23
0.0
 14
10.0
 24
10.0
 15
10.0
 25
10.0
 16
0.0
 26
0.0
 36
1.0
 17
0.0
 27
0.0
 37
0.0
 40
215.9
 41
1.2941176471
 42
50.0
 43
0.0
 44
0.0
 50
0.0
 51
0.0
 71
     0
 72
  2000
 73
     1
 74
     3
 75
     0
 76
     0
 77
     0
 78
     0
281
     0
 65
     1
110
0.0
120
0.0
130
0.0
111
1.0
121
0.0
131
0.0
112
0.0
122
1.0
132
0.0
 79
     0
146
0.0
  0
ENDTAB
  0
TABLE
  2
LTYPE
  5
5
330
0
100
AcDbSymbolTable
 70
     6
  0
LTYPE
  5
14
330
5
100
AcDbSymbolTableRecord
100
AcDbLinetypeTableRecord
  2
ByBlock
 70
     0
  3

 72
    65
 73
     0
 40
0.0
  0
LTYPE
  5
15
330
5
100
AcDbSymbolTableRecord
100
AcDbLinetypeTableRecord
  2
ByLayer
 70
     0
  3

 72
    65
 73
     0
 40
0.0
  0
LTYPE
  5
16
330
5
100
AcDbSymbolTableRecord
100
AcDbLinetypeTableRecord
  2
Continuous
 70
     0
  3
Solid line
 72
    65
 73
     0
 40
0.0
  0
LTYPE
  5
6E
330
5
100
AcDbSymbolTableRecord
100
AcDbLinetypeTableRecord
  2
HIDDEN
 70
     0
  3
Hidden __ __ __ __ __ __ __ __ __ __ __ __ __ __
 72
    65
 73
     2
 40
1.905
 49
1.27
 74
     0
 49
-0.635
 74
     0
  0
LTYPE
  5
6F
330
5
100
AcDbSymbolTableRecord
100
AcDbLinetypeTableRecord
  2
PHANTOM
 70
     0
  3
Phantom ______  __  __  ______  __  __  ______
 72
    65
 73
     6
 40
12.7
 49
6.35
 74
     0
 49
-1.27
 74
     0
 49
1.27
 74
     0
 49
-1.27
 74
     0
 49
1.27
 74
     0
 49
-1.27
 74
     0
  0
LTYPE
  5
70
330
5
100
AcDbSymbolTableRecord
100
AcDbLinetypeTableRecord
  2
CENTER
 70
     0
  3
Center ____ _ ____ _ ____ _ ____ _ ____ _ ____
 72
    65
 73
     4
 40
10.16
 49
6.35
 74
     0
 49
-1.27
 74
     0
 49
1.27
 74
     0
 49
-1.27
 74
     0
  0
LTYPE
  5
71
330
5
100
AcDbSymbolTableRecord
100
AcDbLinetypeTableRecord
  2
CENTERX2
 70
     0
  3
Center (2x) ________  __  ________  __  _____
 72
    65
 73
     4
 40
20.32
 49
12.7
 74
     0
 49
-2.54
 74
     0
 49
2.54
 74
     0
 49
-2.54
 74
     0
  0
LTYPE
  5
72
330
5
100
AcDbSymbolTableRecord
100
AcDbLinetypeTableRecord
  2
DOT2
 70
     0
  3
Dot (.5x) ........................................
 72
    65
 73
     2
 40
0.635
 49
0.0
 74
     0
 49
-0.635
 74
     0
  0
ENDTAB
  0
TABLE
  2
LAYER
  5
2
330
0
100
AcDbSymbolTable
 70
    17
  0
LAYER
  5
10
330
2
100
AcDbSymbolTableRecord
100
AcDbLayerTableRecord
  2
0
 70
     0
 62
     7
  6
Continuous
370
    -3
390
F
  0
LAYER
  5
73
330
2
100
AcDbSymbolTableRecord
100
AcDbLayerTableRecord
  2
FORMAT
 70
     0
 62
     7
  6
Continuous
370
    -3
390
F
  0
LAYER
  5
74
330
2
100
AcDbSymbolTableRecord
100
AcDbLayerTableRecord
  2
YARDIMCI_GEOMETRI
 70
     0
 62
    -6
  6
Continuous
290
     0
370
    -3
390
F
  0
LAYER
  5
75
330
2
100
AcDbSymbolTableRecord
100
AcDbLayerTableRecord
  2
SAYFA_CERCEVESI
 70
     0
 62
     7
  6
Continuous
370
    25
390
F
  0
LAYER
  5
76
330
2
100
AcDbSymbolTableRecord
100
AcDbLayerTableRecord
  2
ANTET
 70
     0
 62
     7
  6
Continuous
370
    -3
390
F
  0
LAYER
  5
77
330
2
100
AcDbSymbolTableRecord
100
AcDbLayerTableRecord
  2
OLCU
 70
     0
 62
   150
  6
Continuous
370
    -3
390
F
  0
LAYER
  5
78
330
2
100
AcDbSymbolTableRecord
100
AcDbLayerTableRecord
  2
METIN
 70
     0
 62
    96
  6
Continuous
370
    -3
390
F
  0
LAYER
  5
79
330
2
100
AcDbSymbolTableRecord
100
AcDbLayerTableRecord
  2
BALON
 70
     0
 62
     5
  6
Continuous
370
    -3
390
F
  0
LAYER
  5
7A
330
2
100
AcDbSymbolTableRecord
100
AcDbLayerTableRecord
  2
VURGU
 70
     0
 62
     7
  6
Continuous
370
    -3
390
F
  0
LAYER
  5
7B
330
2
100
AcDbSymbolTableRecord
100
AcDbLayerTableRecord
  2
SILIK
 70
     0
 62
     7
  6
Continuous
370
    -3
390
F
  0
LAYER
  5
7C
330
2
100
AcDbSymbolTableRecord
100
AcDbLayerTableRecord
  2
MODEL
 70
     0
 62
     7
  6
Continuous
370
    -3
390
F
  0
LAYER
  5
7D
330
2
100
AcDbSymbolTableRecord
100
AcDbLayerTableRecord
  2
DETAYLANDıRMA
 70
     0
 62
   190
  6
Continuous
370
    -3
390
F
  0
LAYER
  5
7E
330
2
100
AcDbSymbolTableRecord
100
AcDbLayerTableRecord
  2
TOLERANS
 70
     0
 62
   230
  6
Continuous
370
    -3
390
F
  0
LAYER
  5
7F
330
2
100
AcDbSymbolTableRecord
100
AcDbLayerTableRecord
  2
MERKEZ_CIZGILERI
 70
     0
 62
    30
  6
Continuous
370
    -3
390
F
  0
LAYER
  5
80
330
2
100
AcDbSymbolTableRecord
100
AcDbLayerTableRecord
  2
KESIT-DETAY_CIZGILERI
 70
     0
 62
     7
  6
Continuous
370
    -3
390
F
  0
LAYER
  5
81
330
2
100
AcDbSymbolTableRecord
100
AcDbLayerTableRecord
  2
\U+041E\U+0421\U+0415\U+0412\U+042B\U+0415
 70
     0
 62
     7
  6
Continuous
370
    -3
390
F
  0
LAYER
  5
82
330
2
100
AcDbSymbolTableRecord
100
AcDbLayerTableRecord
  2
\U+0412\U+041E\U+0414\U+042F\U+041D\U+042B\U+0415_\U+0417\U+041D\U+0410\U+041A\U+0418
 70
     0
 62
    11
  6
Continuous
370
    -3
390
F
  0
ENDTAB
  0
TABLE
  2
STYLE
  5
3
330
0
100
AcDbSymbolTable
 70
     1
  0
STYLE
  5
11
330
3
100
AcDbSymbolTableRecord
100
AcDbTextStyleTableRecord
  2
Standard
 70
     0
 40
0.0
 41
1.0
 50
0.0
 71
     0
 42
3.5
  3
txt
  4

  0
ENDTAB
  0
TABLE
  2
VIEW
  5
6
330
0
100
AcDbSymbolTable
 70
     0
  0
ENDTAB
  0
TABLE
  2
UCS
  5
7
330
0
100
AcDbSymbolTable
 70
     0
  0
ENDTAB
  0
TABLE
  2
APPID
  5
9
330
0
100
AcDbSymbolTable
 70
     1
  0
APPID
  5
12
330
9
100
AcDbSymbolTableRecord
100
AcDbRegAppTableRecord
  2
ACAD
 70
     0
  0
ENDTAB
  0
TABLE
  2
DIMSTYLE
  5
A
330
0
100
AcDbSymbolTable
 70
     1
100
AcDbDimStyleTable
  0
DIMSTYLE
105
27
330
A
100
AcDbSymbolTableRecord
100
AcDbDimStyleTableRecord
  2
ISO-25
 70
     0
 41
2.5
 42
0.625
 43
3.75
 44
1.25
 73
     0
 74
     0
 77
     1
 78
     8
140
2.5
141
2.5
143
0.0393700787
147
0.625
171
     3
172
     1
178
     0
271
     2
272
     2
274
     3
278
    44
283
     0
284
     8
340
11
  0
ENDTAB
  0
TABLE
  2
BLOCK_RECORD
  5
1
330
0
100
AcDbSymbolTable
 70
     2
  0
BLOCK_RECORD
  5
1F
330
1
100
AcDbSymbolTableRecord
100
AcDbBlockTableRecord
  2
*Model_Space
340
22
  0
BLOCK_RECORD
  5
1B
330
1
100
AcDbSymbolTableRecord
100
AcDbBlockTableRecord
  2
*Paper_Space
340
1E
  0
BLOCK_RECORD
  5
23
330
1
100
AcDbSymbolTableRecord
100
AcDbBlockTableRecord
  2
*Paper_Space0
340
26
  0
BLOCK_RECORD
  5
88
330
1
100
AcDbSymbolTableRecord
100
AcDbBlockTableRecord
  2
SW_CENTERMARKSYMBOL_0
340
0
102
{BLKREFS
331
93
102
}
  0
ENDTAB
  0
ENDSEC
  0
SECTION
  2
BLOCKS
  0
BLOCK
  5
20
330
1F
100
AcDbEntity
  8
0
100
AcDbBlockBegin
  2
*Model_Space
 70
     0
 10
0.0
 20
0.0
 30
0.0
  3
*Model_Space
  1

  0
ENDBLK
  5
21
330
1F
100
AcDbEntity
  8
0
100
AcDbBlockEnd
  0
BLOCK
  5
1C
330
1B
100
AcDbEntity
 67
     1
  8
0
100
AcDbBlockBegin
  2
*Paper_Space
 70
     0
 10
0.0
 20
0.0
 30
0.0
  3
*Paper_Space
  1

  0
ENDBLK
  5
1D
330
1B
100
AcDbEntity
 67
     1
  8
0
100
AcDbBlockEnd
  0
BLOCK
  5
24
330
23
100
AcDbEntity
  8
0
100
AcDbBlockBegin
  2
*Paper_Space0
 70
     0
 10
0.0
 20
0.0
 30
0.0
  3
*Paper_Space0
  1

  0
ENDBLK
  5
25
330
23
100
AcDbEntity
  8
0
100
AcDbBlockEnd
  0
BLOCK
  5
89
330
88
100
AcDbEntity
  8
0
100
AcDbBlockBegin
  2
SW_CENTERMARKSYMBOL_0
 70
     0
 10
0.0
 20
0.0
 30
0.0
  3
SW_CENTERMARKSYMBOL_0
  1

  0
LINE
  5
8B
330
88
100
AcDbEntity
  8
FORMAT
 62
     0
100
AcDbLine
 10
0.0
 20
0.0
 30
0.0
 11
0.0
 21
2.5
 31
0.0
  0
LINE
  5
8C
330
88
100
AcDbEntity
  8
FORMAT
 62
     0
100
AcDbLine
 10
0.0
 20
0.0
 30
0.0
 11
-2.5
 21
0.0
 31
0.0
  0
LINE
  5
8D
330
88
100
AcDbEntity
  8
FORMAT
 62
     0
100
AcDbLine
 10
0.0
 20
0.0
 30
0.0
 11
0.0
 21
-2.5
 31
0.0
  0
LINE
  5
8E
330
88
100
AcDbEntity
  8
FORMAT
 62
     0
100
AcDbLine
 10
0.0
 20
0.0
 30
0.0
 11
2.5
 21
0.0
 31
0.0
  0
LINE
  5
8F
330
88
100
AcDbEntity
  8
FORMAT
 62
     0
100
AcDbLine
 10
0.0
 20
5.0
 30
0.0
 11
0.0
 21
92.5
 31
0.0
  0
LINE
  5
90
330
88
100
AcDbEntity
  8
FORMAT
 62
     0
100
AcDbLine
 10
-5.0
 20
0.0
 30
0.0
 11
-92.5
 21
0.0
 31
0.0
  0
LINE
  5
91
330
88
100
AcDbEntity
  8
FORMAT
 62
     0
100
AcDbLine
 10
0.0
 20
-5.0
 30
0.0
 11
0.0
 21
-92.5
 31
0.0
  0
LINE
  5
92
330
88
100
AcDbEntity
  8
FORMAT
 62
     0
100
AcDbLine
 10
5.0
 20
0.0
 30
0.0
 11
92.5
 21
0.0
 31
0.0
  0
ENDBLK
  5
8A
330
88
100
AcDbEntity
  8
0
100
AcDbBlockEnd
  0
ENDSEC
  0
SECTION
  2
ENTITIES
  0
CIRCLE
  5
83
330
1F
100
AcDbEntity
  8
0
  6
Continuous
 62
     7
370
    25
100
AcDbCircle
 10
139.395004093
 20
107.5851680021
 30
0.0
 40
90.0
  0
CIRCLE
  5
84
330
1F
100
AcDbEntity
  8
0
  6
Continuous
 62
     7
370
    25
100
AcDbCircle
 10
139.395004093
 20
107.5851680021
 30
0.0
 40
73.60000000000001
  0
CIRCLE
  5
85
330
1F
100
AcDbEntity
  8
0
  6
Continuous
 62
     7
370
    25
100
AcDbCircle
 10
139.395004093
 20
107.5851680021
 30
0.0
 40
73.51003223490325
  0
CIRCLE
  5
86
330
1F
100
AcDbEntity
  8
0
  6
Continuous
 62
     7
370
    25
100
AcDbCircle
 10
139.395004093
 20
107.5851680021
 30
0.0
 40
65.4899677650968
  0
CIRCLE
  5
87
330
1F
100
AcDbEntity
  8
0
  6
Continuous
 62
     7
370
    25
100
AcDbCircle
 10
139.395004093
 20
107.5851680021
 30
0.0
 40
65.40000000000002
  0
INSERT
  5
93
330
1F
100
AcDbEntity
  8
FORMAT
 62
     7
100
AcDbBlockReference
  2
SW_CENTERMARKSYMBOL_0
 10
139.395004093
 20
107.5851680021
 30
0.0
  0
LINE
  5
94
330
1F
100
AcDbEntity
  8
0
  6
Continuous
 62
     7
370
    25
100
AcDbLine
 10
-178.4277699529
 20
197.5851715784
 30
0.0
 11
-283.237212488
 21
197.5851715784
 31
0.0
  0
LINE
  5
95
330
1F
100
AcDbEntity
  8
0
  6
Continuous
 62
     7
370
    25
100
AcDbLine
 10
-283.237212488
 20
17.5851644258
 30
0.0
 11
-178.4277699529
 21
17.5851644258
 31
0.0
  0
ARC
  5
96
330
1F
100
AcDbEntity
  8
0
  6
Continuous
 62
     7
370
    25
100
AcDbCircle
 10
-178.4277698607
 20
195.5851680021
 30
0.0
 40
2.000000000000028
100
AcDbArc
 50
79.1144729453
 51
90.0
  0
ARC
  5
97
330
1F
100
AcDbEntity
  8
0
  6
Continuous
 62
     7
370
    25
100
AcDbCircle
 10
-178.4277698607
 20
19.5851680021
 30
0.0
 40
2.000000000000018
100
AcDbArc
 50
270.0
 51
280.8855270547
  0
LINE
  5
98
330
1F
100
AcDbEntity
  8
0
  6
Continuous
 62
     7
370
    25
100
AcDbLine
 10
-178.0500758081
 20
17.6211581807
 30
0.0
 11
-126.424341613
 21
27.549183486
 31
0.0
  0
LINE
  5
99
330
1F
100
AcDbEntity
  8
0
  6
Continuous
 62
     7
370
    25
100
AcDbLine
 10
-126.424341613
 20
187.6211525183
 30
0.0
 11
-178.0500758081
 21
197.5491778235
 31
0.0
  0
ARC
  5
9A
330
1F
100
AcDbEntity
  8
0
  6
Continuous
 62
     7
370
    25
100
AcDbCircle
 10
-126.0466461889
 20
189.5851680021
 30
0.0
 40
2.0
100
AcDbArc
 50
259.1144729453
 51
270.0
  0
ARC
  5
9B
330
1F
100
AcDbEntity
  8
0
  6
Continuous
 62
     7
370
    25
100
AcDbCircle
 10
-126.0466461889
 20
25.5851680021
 30
0.0
 40
2.0
100
AcDbArc
 50
90.0
 51
100.8855270547
  0
LINE
  5
9C
330
1F
100
AcDbEntity
  8
0
  6
Continuous
 62
     7
370
    25
100
AcDbLine
 10
-28.2372023552
 20
187.585166214
 30
0.0
 11
-126.0466456055
 21
187.585166214
 31
0.0
  0
LINE
  5
9D
330
1F
100
AcDbEntity
  8
0
  6
Continuous
 62
     7
370
    25
100
AcDbLine
 10
-126.0466456055
 20
27.5851697903
 30
0.0
 11
-28.2372023552
 21
27.5851697903
 31
0.0
  0
LINE
  5
9E
330
1F
100
AcDbEntity
  8
0
  6
Continuous
 62
     7
370
    25
100
AcDbLine
 10
-283.237212488
 20
197.5851715784
 30
0.0
 11
-283.237212488
 21
17.5851644258
 31
0.0
  0
LINE
  5
9F
330
1F
100
AcDbEntity
  8
0
  6
Continuous
 62
     7
370
    25
100
AcDbLine
 10
-28.2372023552
 20
187.585166214
 30
0.0
 11
-28.2372023552
 21
27.5851697903
 31
0.0
  0
LINE
  5
A0
330
1F
100
AcDbEntity
  8
0
  6
Continuous
 62
     1
370
    25
100
AcDbLine
 10
-178.4277699529
 20
197.5851715784
 30
0.0
 11
-178.4277699529
 21
17.5851644258
 31
0.0
  0
LINE
  5
A1
330
1F
100
AcDbEntity
  8
0
  6
Continuous
 62
     1
370
    25
100
AcDbLine
 10
-178.0500758081
 20
197.5491778235
 30
0.0
 11
-178.0500758081
 21
17.6211581807
 31
0.0
  0
LINE
  5
A2
330
1F
100
AcDbEntity
  8
0
  6
Continuous
 62
     1
370
    25
100
AcDbLine
 10
-126.424341613
 20
187.6211525183
 30
0.0
 11
-126.424341613
 21
27.549183486
 31
0.0
  0
LINE
  5
A3
330
1F
100
AcDbEntity
  8
0
  6
Continuous
 62
     1
370
    25
100
AcDbLine
 10
-126.0466456055
 20
187.585166214
 30
0.0
 11
-126.0466456055
 21
27.5851697903
 31
0.0
  0
LINE
  5
A4
330
1F
100
AcDbEntity
  8
0
  6
Continuous
 62
     7
370
    25
100
AcDbLine
 10
486.8081300105
 20
17.5851644258
 30
0.0
 11
591.6175725455
 21
17.5851644258
 31
0.0
  0
LINE
  5
A5
330
1F
100
AcDbEntity
  8
0
  6
Continuous
 62
     7
370
    25
100
AcDbLine
 10
591.6175725455
 20
197.5851715784
 30
0.0
 11
486.8081300105
 21
197.5851715784
 31
0.0
  0
ARC
  5
A6
330
1F
100
AcDbEntity
  8
0
  6
Continuous
 62
     7
370
    25
100
AcDbCircle
 10
486.8081299182
 20
19.5851680021
 30
0.0
 40
2.000000000000025
100
AcDbArc
 50
259.1144729453
 51
270.0
  0
ARC
  5
A7
330
1F
100
AcDbEntity
  8
0
  6
Continuous
 62
     7
370
    25
100
AcDbCircle
 10
486.8081299182
 20
195.5851680021
 30
0.0
 40
2.000000000000039
100
AcDbArc
 50
90.0
 51
100.8855270547
  0
LINE
  5
A8
330
1F
100
AcDbEntity
  8
0
  6
Continuous
 62
     7
370
    25
100
AcDbLine
 10
486.4304358656
 20
197.5491778235
 30
0.0
 11
434.8047016705
 21
187.6211525183
 31
0.0
  0
LINE
  5
A9
330
1F
100
AcDbEntity
  8
0
  6
Continuous
 62
     7
370
    25
100
AcDbLine
 10
434.8047016705
 20
27.549183486
 30
0.0
 11
486.4304358656
 21
17.6211581807
 31
0.0
  0
ARC
  5
AA
330
1F
100
AcDbEntity
  8
0
  6
Continuous
 62
     7
370
    25
100
AcDbCircle
 10
434.4270062464
 20
25.5851680021
 30
0.0
 40
2.0
100
AcDbArc
 50
79.1144729453
 51
90.0
  0
ARC
  5
AB
330
1F
100
AcDbEntity
  8
0
  6
Continuous
 62
     7
370
    25
100
AcDbCircle
 10
434.4270062464
 20
189.5851680021
 30
0.0
 40
2.0
100
AcDbArc
 50
270.0
 51
280.8855270547
  0
LINE
  5
AC
330
1F
100
AcDbEntity
  8
0
  6
Continuous
 62
     7
370
    25
100
AcDbLine
 10
336.6175624127
 20
27.5851697903
 30
0.0
 11
434.427005663
 21
27.5851697903
 31
0.0
  0
LINE
  5
AD
330
1F
100
AcDbEntity
  8
0
  6
Continuous
 62
     7
370
    25
100
AcDbLine
 10
434.427005663
 20
187.585166214
 30
0.0
 11
336.6175624127
 21
187.585166214
 31
0.0
  0
LINE
  5
AE
330
1F
100
AcDbEntity
  8
0
  6
Continuous
 62
     7
370
    25
100
AcDbLine
 10
591.6175725455
 20
107.5851680021
 30
0.0
 11
591.6175725455
 21
197.5851715784
 31
0.0
  0
LINE
  5
AF
330
1F
100
AcDbEntity
  8
0
  6
Continuous
 62
     7
370
    25
100
AcDbLine
 10
591.6175725455
 20
17.5851644258
 30
0.0
 11
591.6175725455
 21
107.5851680021
 31
0.0
  0
LINE
  5
B0
330
1F
100
AcDbEntity
  8
0
  6
Continuous
 62
     7
370
    25
100
AcDbLine
 10
336.6175624127
 20
107.5851680021
 30
0.0
 11
336.6175624127
 21
187.585166214
 31
0.0
  0
LINE
  5
B1
330
1F
100
AcDbEntity
  8
0
  6
Continuous
 62
     7
370
    25
100
AcDbLine
 10
336.6175624127
 20
27.5851697903
 30
0.0
 11
336.6175624127
 21
107.5851680021
 31
0.0
  0
LINE
  5
B2
330
1F
100
AcDbEntity
  8
0
  6
Continuous
 62
     1
370
    25
100
AcDbLine
 10
486.8081300105
 20
107.5851680021
 30
0.0
 11
486.8081300105
 21
197.5851715784
 31
0.0
  0
LINE
  5
B3
330
1F
100
AcDbEntity
  8
0
  6
Continuous
 62
     1
370
    25
100
AcDbLine
 10
486.8081300105
 20
17.5851644258
 30
0.0
 11
486.8081300105
 21
107.5851680021
 31
0.0
  0
LINE
  5
B4
330
1F
100
AcDbEntity
  8
0
  6
Continuous
 62
     1
370
    25
100
AcDbLine
 10
486.4304358656
 20
107.5851680021
 30
0.0
 11
486.4304358656
 21
197.5491778235
 31
0.0
  0
LINE
  5
B5
330
1F
100
AcDbEntity
  8
0
  6
Continuous
 62
     1
370
    25
100
AcDbLine
 10
486.4304358656
 20
17.6211581807
 30
0.0
 11
486.4304358656
 21
107.5851680021
 31
0.0
  0
LINE
  5
B6
330
1F
100
AcDbEntity
  8
0
  6
Continuous
 62
     1
370
    25
100
AcDbLine
 10
434.8047016705
 20
107.5851680021
 30
0.0
 11
434.8047016705
 21
187.6211525183
 31
0.0
  0
LINE
  5
B7
330
1F
100
AcDbEntity
  8
0
  6
Continuous
 62
     1
370
    25
100
AcDbLine
 10
434.8047016705
 20
27.549183486
 30
0.0
 11
434.8047016705
 21
107.5851680021
 31
0.0
  0
LINE
  5
B8
330
1F
100
AcDbEntity
  8
0
  6
Continuous
 62
     1
370
    25
100
AcDbLine
 10
434.427005663
 20
107.5851680021
 30
0.0
 11
434.427005663
 21
187.585166214
 31
0.0
  0
LINE
  5
B9
330
1F
100
AcDbEntity
  8
0
  6
Continuous
 62
     1
370
    25
100
AcDbLine
 10
434.427005663
 20
27.5851697903
 30
0.0
 11
434.427005663
 21
107.5851680021
 31
0.0
  0
LINE
  5
BA
330
1F
100
AcDbEntity
  8
0
  6
Continuous
 62
     7
370
    25
100
AcDbLine
 10
229.3950076693
 20
413.6484714991
 30
0.0
 11
229.3950076693
 21
518.4579140341
 31
0.0
  0
LINE
  5
BB
330
1F
100
AcDbEntity
  8
0
  6
Continuous
 62
     7
370
    25
100
AcDbLine
 10
49.3950005168
 20
518.4579140341
 30
0.0
 11
49.3950005168
 21
413.6484714991
 31
0.0
  0
ARC
  5
BC
330
1F
100
AcDbEntity
  8
0
  6
Continuous
 62
     7
370
    25
100
AcDbCircle
 10
227.395004093
 20
413.6484714068
 30
0.0
 40
2.0
100
AcDbArc
 50
349.1144729453
 51
0.0
  0
ARC
  5
BD
330
1F
100
AcDbEntity
  8
0
  6
Continuous
 62
     7
370
    25
100
AcDbCircle
 10
51.395004093
 20
413.6484714068
 30
0.0
 40
2.000000000000014
100
AcDbArc
 50
180.0
 51
190.8855270547
  0
LINE
  5
BE
330
1F
100
AcDbEntity
  8
0
  6
Continuous
 62
     7
370
    25
100
AcDbLine
 10
49.4309942716
 20
413.2707773542
 30
0.0
 11
59.3590195769
 21
361.6450431591
 31
0.0
  0
LINE
  5
BF
330
1F
100
AcDbEntity
  8
0
  6
Continuous
 62
     7
370
    25
100
AcDbLine
 10
219.4309886092
 20
361.6450431591
 30
0.0
 11
229.3590139145
 21
413.2707773542
 31
0.0
  0
ARC
  5
C0
330
1F
100
AcDbEntity
  8
0
  6
Continuous
 62
     7
370
    25
100
AcDbCircle
 10
221.395004093
 20
361.267347735
 30
0.0
 40
2.000000000000028
100
AcDbArc
 50
169.1144729453
 51
180.0
  0
ARC
  5
C1
330
1F
100
AcDbEntity
  8
0
  6
Continuous
 62
     7
370
    25
100
AcDbCircle
 10
57.395004093
 20
361.267347735
 30
0.0
 40
2.000000000000007
100
AcDbArc
 50
0.0
 51
10.8855270547
  0
LINE
  5
C2
330
1F
100
AcDbEntity
  8
0
  6
Continuous
 62
     7
370
    25
100
AcDbLine
 10
219.3950023049
 20
263.4579039013
 30
0.0
 11
219.3950023049
 21
361.2673471516
 31
0.0
  0
LINE
  5
C3
330
1F
100
AcDbEntity
  8
0
  6
Continuous
 62
     7
370
    25
100
AcDbLine
 10
59.3950058812
 20
361.2673471516
 30
0.0
 11
59.3950058812
 21
263.4579039013
 31
0.0
  0
LINE
  5
C4
330
1F
100
AcDbEntity
  8
0
  6
Continuous
 62
     7
370
    25
100
AcDbLine
 10
229.3950076693
 20
518.4579140341
 30
0.0
 11
49.3950005168
 21
518.4579140341
 31
0.0
  0
LINE
  5
C5
330
1F
100
AcDbEntity
  8
0
  6
Continuous
 62
     7
370
    25
100
AcDbLine
 10
219.3950023049
 20
263.4579039013
 30
0.0
 11
59.3950058812
 21
263.4579039013
 31
0.0
  0
LINE
  5
C6
330
1F
100
AcDbEntity
  8
0
  6
Continuous
 62
     1
370
    25
100
AcDbLine
 10
229.3950076693
 20
413.6484714991
 30
0.0
 11
49.3950005168
 21
413.6484714991
 31
0.0
  0
LINE
  5
C7
330
1F
100
AcDbEntity
  8
0
  6
Continuous
 62
     1
370
    25
100
AcDbLine
 10
229.3590139145
 20
413.2707773542
 30
0.0
 11
49.4309942716
 21
413.2707773542
 31
0.0
  0
LINE
  5
C8
330
1F
100
AcDbEntity
  8
0
  6
Continuous
 62
     1
370
    25
100
AcDbLine
 10
219.4309886092
 20
361.6450431591
 30
0.0
 11
59.3590195769
 21
361.6450431591
 31
0.0
  0
LINE
  5
C9
330
1F
100
AcDbEntity
  8
0
  6
Continuous
 62
     1
370
    25
100
AcDbLine
 10
219.3950023049
 20
361.2673471516
 30
0.0
 11
59.3950058812
 21
361.2673471516
 31
0.0
  0
LINE
  5
CA
330
1F
100
AcDbEntity
  8
0
  6
Continuous
 62
     7
370
    25
100
AcDbLine
 10
49.3950005168
 20
-221.6926347964
 30
0.0
 11
49.3950005168
 21
-326.5020773315
 31
0.0
  0
LINE
  5
CB
330
1F
100
AcDbEntity
  8
0
  6
Continuous
 62
     7
370
    25
100
AcDbLine
 10
229.3950076693
 20
-326.5020773315
 30
0.0
 11
229.3950076693
 21
-221.6926347964
 31
0.0
  0
ARC
  5
CC
330
1F
100
AcDbEntity
  8
0
  6
Continuous
 62
     7
370
    25
100
AcDbCircle
 10
51.395004093
 20
-221.6926347042
 30
0.0
 40
2.000000000000014
100
AcDbArc
 50
169.1144729453
 51
180.0
  0
ARC
  5
CD
330
1F
100
AcDbEntity
  8
0
  6
Continuous
 62
     7
370
    25
100
AcDbCircle
 10
227.395004093
 20
-221.6926347042
 30
0.0
 40
2.0
100
AcDbArc
 50
0.0
 51
10.8855270547
  0
LINE
  5
CE
330
1F
100
AcDbEntity
  8
0
  6
Continuous
 62
     7
370
    25
100
AcDbLine
 10
229.3590139145
 20
-221.3149406516
 30
0.0
 11
219.4309886092
 21
-169.6892064565
 31
0.0
  0
LINE
  5
CF
330
1F
100
AcDbEntity
  8
0
  6
Continuous
 62
     7
370
    25
100
AcDbLine
 10
59.3590195769
 20
-169.6892064565
 30
0.0
 11
49.4309942716
 21
-221.3149406516
 31
0.0
  0
ARC
  5
D0
330
1F
100
AcDbEntity
  8
0
  6
Continuous
 62
     7
370
    25
100
AcDbCircle
 10
57.395004093
 20
-169.3115110324
 30
0.0
 40
2.000000000000007
100
AcDbArc
 50
349.1144729453
 51
0.0
  0
ARC
  5
D1
330
1F
100
AcDbEntity
  8
0
  6
Continuous
 62
     7
370
    25
100
AcDbCircle
 10
221.395004093
 20
-169.3115110324
 30
0.0
 40
2.000000000000028
100
AcDbArc
 50
180.0
 51
190.8855270547
  0
LINE
  5
D2
330
1F
100
AcDbEntity
  8
0
  6
Continuous
 62
     7
370
    25
100
AcDbLine
 10
59.3950058812
 20
-71.5020671987
 30
0.0
 11
59.3950058812
 21
-169.311510449
 31
0.0
  0
LINE
  5
D3
330
1F
100
AcDbEntity
  8
0
  6
Continuous
 62
     7
370
    25
100
AcDbLine
 10
219.3950023049
 20
-169.311510449
 30
0.0
 11
219.3950023049
 21
-71.5020671987
 31
0.0
  0
LINE
  5
D4
330
1F
100
AcDbEntity
  8
0
  6
Continuous
 62
     7
370
    25
100
AcDbLine
 10
49.3950005168
 20
-326.5020773315
 30
0.0
 11
229.3950076693
 21
-326.5020773315
 31
0.0
  0
LINE
  5
D5
330
1F
100
AcDbEntity
  8
0
  6
Continuous
 62
     7
370
    25
100
AcDbLine
 10
59.3950058812
 20
-71.5020671987
 30
0.0
 11
219.3950023049
 21
-71.5020671987
 31
0.0
  0
LINE
  5
D6
330
1F
100
AcDbEntity
  8
0
  6
Continuous
 62
     1
370
    25
100
AcDbLine
 10
49.3950005168
 20
-221.6926347964
 30
0.0
 11
229.3950076693
 21
-221.6926347964
 31
0.0
  0
LINE
  5
D7
330
1F
100
AcDbEntity
  8
0
  6
Continuous
 62
     1
370
    25
100
AcDbLine
 10
49.4309942716
 20
-221.3149406516
 30
0.0
 11
229.3590139145
 21
-221.3149406516
 31
0.0
  0
LINE
  5
D8
330
1F
100
AcDbEntity
  8
0
  6
Continuous
 62
     1
370
    25
100
AcDbLine
 10
59.3590195769
 20
-169.6892064565
 30
0.0
 11
219.4309886092
 21
-169.6892064565
 31
0.0
  0
LINE
  5
D9
330
1F
100
AcDbEntity
  8
0
  6
Continuous
 62
     1
370
    25
100
AcDbLine
 10
59.3950058812
 20
-169.311510449
 30
0.0
 11
219.3950023049
 21
-169.311510449
 31
0.0
  0
LINE
  5
DA
330
1F
100
AcDbEntity
  8
0
  6
Continuous
 62
     7
370
    25
100
AcDbLine
 10
468.6148638523
 20
-78.7285641947
 30
0.0
 11
394.5033963034
 21
-35.9449246541
 31
0.0
  0
LINE
  5
DB
330
1F
100
AcDbEntity
  8
0
  6
Continuous
 62
     7
370
    25
100
AcDbLine
 10
304.5107077931
 20
-191.8337213661
 30
0.0
 11
378.622175342
 21
-234.6173609067
 31
0.0
  0
LINE
  5
DC
330
1F
100
AcDbEntity
  8
0
  6
Continuous
 62
     7
370
    25
100
AcDbLine
 10
385.4428380321
 20
-237.5482371262
 30
0.0
 11
426.1901148274
 21
-249.7140510846
 31
0.0
  0
LINE
  5
DD
330
1F
100
AcDbEntity
  8
0
  6
Continuous
 62
     7
370
    25
100
AcDbLine
 10
505.4761077016
 20
-112.3718027632
 30
0.0
 11
474.5638243481
 21
-83.1694341175
 31
0.0
  0
LINE
  5
DE
330
1F
100
AcDbEntity
  8
0
  6
Continuous
 62
     7
370
    25
100
AcDbLine
 10
569.8160365233
 20
-148.6974544576
 30
0.0
 11
503.2523464608
 21
-110.2710541135
 31
0.0
  0
LINE
  5
DF
330
1F
100
AcDbEntity
  8
0
  6
Continuous
 62
     7
370
    25
100
AcDbLine
 10
423.2588502457
 20
-248.8388680058
 30
0.0
 11
489.8225403082
 21
-287.2652683499
 31
0.0
  0
LWPOLYLINE
  5
E0
330
1F
100
AcDbEntity
  8
0
  6
Continuous
 62
     7
370
    25
100
AcDbPolyline
 90
      121
 70
   128
 43
0.0
 10
285.8674392126
 20
-150.627689502
 10
285.9546568472
 20
-146.7312398251
 10
286.2160674068
 20
-142.7447730102
 10
286.6509491264
 20
-138.6792172215
 10
287.2581218944
 20
-134.5457104681
 10
288.0359103736
 20
-130.355588813
 10
288.982186148
 20
-126.1203358067
 10
290.0943571865
 20
-121.8515558697
 10
291.3693731109
 20
-117.5609552814
 10
292.8037462696
 20
-113.2602859082
 10
294.3935306638
 20
-108.9613436802
 10
296.1343851681
 20
-104.675909281
 10
298.0215261152
 20
-100.4157268509
 10
300.0497852479
 20
-96.1924735728
 10
302.2136044504
 20
-92.0177292543
 10
304.5070515539
 20
-87.9029307006
 10
306.9238414096
 20
-83.8593595493
 10
309.4573464255
 20
-79.8980996857
 10
312.1006281767
 20
-76.030006827
 10
314.8464374053
 20
-72.2656841874
 10
317.6872456304
 20
-68.6154459793
 10
320.6152741243
 20
-65.0893067691
 10
323.6224912783
 20
-61.696916077
 10
326.7006547491
 20
-58.4475888003
 10
329.8413312159
 20
-55.3502208029
 10
333.0359082337
 20
-52.4133064076
 10
336.2756324287
 20
-49.6448920115
 10
339.5516233283
 20
-47.0525620182
 10
342.8549016781
 20
-44.6434346588
 10
346.1764121619
 20
-42.4241002053
 10
349.5070520482
 20
-40.4006470202
 10
352.8376919345
 20
-38.5786252458
 10
356.1592024183
 20
-36.9630253235
 10
359.4624807682
 20
-35.5582686811
 10
362.7384716678
 20
-34.3682200918
 10
365.9781958628
 20
-33.3961285514
 10
369.1727728805
 20
-32.6446628314
 10
372.3134493473
 20
-32.1158829649
 10
375.3916128182
 20
-31.8112383466
 10
378.3988299721
 20
-31.7315700175
 10
381.326858466
 20
-31.8770794875
 10
384.1676666911
 20
-32.2473903341
 10
386.9134759197
 20
-32.8414691188
 10
389.5567576709
 20
-33.6576938284
 10
392.0902626868
 20
-34.6938310637
 10
394.5070525425
 20
-35.9470360422
 10
396.800499646
 20
-37.4138769336
 10
398.9643188485
 20
-39.0903287785
 10
400.9925779812
 20
-40.9718039081
 10
402.8797189283
 20
-43.0531397788
 10
404.6205734327
 20
-45.3286263502
 10
406.2103578268
 20
-47.792042587
 10
407.6447309855
 20
-50.4366199621
 10
408.9197469099
 20
-53.2551184986
 10
410.0319179484
 20
-56.2398130871
 10
410.9781937229
 20
-59.3825193398
 10
411.755982202
 20
-62.6746255316
 10
412.36315497
 20
-66.1071055289
 10
412.7980366896
 20
-69.6705575716
 10
413.0594472492
 20
-73.3552061789
 10
413.1466648838
 20
-77.1509565183
 10
413.0594472492
 20
-81.0474061951
 10
412.7980366896
 20
-85.03387301
 10
412.36315497
 20
-89.0994287987
 10
411.755982202
 20
-93.2329355521
 10
410.9781937229
 20
-97.4230572072
 10
410.0319179484
 20
-101.6583102135
 10
408.9197469099
 20
-105.9270901506
 10
407.6447309855
 20
-110.2176907388
 10
406.2103578268
 20
-114.518360112
 10
404.6205734327
 20
-118.8173023401
 10
402.8797189283
 20
-123.1027367392
 10
400.9925779812
 20
-127.3629191694
 10
398.9643188485
 20
-131.5861724474
 10
396.800499646
 20
-135.760916766
 10
394.5070525425
 20
-139.8757153197
 10
392.0902626868
 20
-143.919286471
 10
389.5567576709
 20
-147.8805463346
 10
386.9134759197
 20
-151.7486391933
 10
384.1676666911
 20
-155.5129618328
 10
381.326858466
 20
-159.1632000409
 10
378.3988299721
 20
-162.6893392512
 10
375.3916128182
 20
-166.0817299432
 10
372.3134493473
 20
-169.3310572199
 10
369.1727728805
 20
-172.4284252174
 10
365.9781958628
 20
-175.3653396126
 10
362.7384716678
 20
-178.1337540088
 10
359.4624807682
 20
-180.726084002
 10
356.1592024183
 20
-183.1352113615
 10
352.8376919345
 20
-185.354545815
 10
349.5070520482
 20
-187.377999
 10
346.1764121619
 20
-189.2000207745
 10
342.8549016781
 20
-190.8156206967
 10
339.5516233283
 20
-192.2203773392
 10
336.2756324287
 20
-193.4104259284
 10
333.0359082337
 20
-194.3825174689
 10
329.8413312159
 20
-195.1339831889
 10
326.7006547491
 20
-195.6627630554
 10
323.6224912783
 20
-195.9674076737
 10
320.6152741243
 20
-196.0470760027
 10
317.6872456304
 20
-195.9015665328
 10
314.8464374053
 20
-195.5312556862
 10
312.1006281767
 20
-194.9371769014
 10
309.4573464255
 20
-194.1209521918
 10
306.9238414096
 20
-193.0848149566
 10
304.5070515539
 20
-191.8316099781
 10
302.2136044504
 20
-190.3647690867
 10
300.0497852479
 20
-188.6883172417
 10
298.0215261152
 20
-186.8068421121
 10
296.1343851681
 20
-184.7255062415
 10
294.3935306638
 20
-182.4500196701
 10
292.8037462696
 20
-179.9866034333
 10
291.3693731109
 20
-177.3420260582
 10
290.0943571865
 20
-174.5235275217
 10
288.982186148
 20
-171.5388329332
 10
288.0359103736
 20
-168.3961266805
 10
287.2581218944
 20
-165.1040204886
 10
286.6509491264
 20
-161.6715404914
 10
286.2160674068
 20
-158.1080884486
 10
285.9546568472
 20
-154.4234398414
 10
285.8674392126
 20
-150.627689502
  0
LWPOLYLINE
  5
E1
330
1F
100
AcDbEntity
  8
0
  6
Continuous
 62
     7
370
    25
100
AcDbPolyline
 90
      109
 70
   128
 43
0.0
 10
297.4639917981
 20
-143.9331421919
 10
297.552041833
 20
-140.3879587676
 10
297.8158916413
 20
-136.7531119714
 10
298.2546456027
 20
-133.0409025866
 10
298.8668180406
 20
-129.2638929406
 10
299.6503490278
 20
-125.4348548144
 10
300.6025727763
 20
-121.566755371
 10
301.7202755886
 20
-117.6726757916
 10
302.9996747853
 20
-113.765794543
 10
304.4364397776
 20
-109.8593311059
 10
306.0257105071
 20
-105.9665049112
 10
307.7621079822
 20
-102.1004866713
 10
309.6397553517
 20
-98.2743573175
 10
311.6523016124
 20
-94.501063895
 10
313.7929374141
 20
-90.7933739368
 10
316.0544187672
 20
-87.163834401
 10
318.4290933845
 20
-83.6247260451
 10
320.9089243888
 20
-80.1880223638
 10
323.4855219231
 20
-76.8653530892
 10
326.1501694924
 20
-73.6679616077
 10
328.893848988
 20
-70.6066661788
 10
331.7072775666
 20
-67.6918264777
 10
334.5809339918
 20
-64.9333070963
 10
337.5050968295
 20
-62.3404311577
 10
340.4698694728
 20
-59.9219902053
 10
343.4652216303
 20
-57.6861533311
 10
346.4810173142
 20
-55.6404875205
 10
349.5070520482
 20
-53.7919179218
 10
352.5330867822
 20
-52.1467021839
 10
355.5488824661
 20
-50.7104044136
 10
358.5442346237
 20
-49.4878813
 10
361.509007267
 20
-48.4832686201
 10
364.4331701046
 20
-47.6999780101
 10
367.3068265298
 20
-47.1406443055
 10
370.1202551084
 20
-46.807168512
 10
372.8639346041
 20
-46.7006790235
 10
375.5285821733
 20
-46.8215339075
 10
378.1051797076
 20
-47.1693269909
 10
380.5850107119
 20
-47.7428787386
 10
382.9596853292
 20
-48.5402461409
 10
385.2211666823
 20
-49.5587348843
 10
387.361802484
 20
-50.7948993537
 10
389.3743487447
 20
-52.2445563235
 10
391.2519961142
 20
-53.9028001693
 10
392.9883935893
 20
-55.7640165578
 10
394.5776643188
 20
-57.821909826
 10
396.0144293111
 20
-60.0695197126
 10
397.2938285078
 20
-62.499238091
 10
398.4115313202
 20
-65.1028454717
 10
399.3637550686
 20
-67.8715307769
 10
400.1472860558
 20
-70.7959232812
 10
400.7594584937
 20
-73.866133675
 10
401.1982124551
 20
-77.0717685187
 10
401.4620622635
 20
-80.4019808105
 10
401.5501122984
 20
-83.8455038284
 10
401.4620622635
 20
-87.3906872526
 10
401.1982124551
 20
-91.0255340489
 10
400.7594584937
 20
-94.7377434336
 10
400.1472860558
 20
-98.5147530796
 10
399.3637550686
 20
-102.3437912059
 10
398.4115313202
 20
-106.2118906492
 10
397.2938285078
 20
-110.1059702287
 10
396.0144293111
 20
-114.0128514772
 10
394.5776643188
 20
-117.9193149143
 10
392.9883935893
 20
-121.8121411091
 10
391.2519961142
 20
-125.678159349
 10
389.3743487447
 20
-129.5042887028
 10
387.361802484
 20
-133.2775821253
 10
385.2211666823
 20
-136.9852720834
 10
382.9596853292
 20
-140.6148116192
 10
380.5850107119
 20
-144.1539199751
 10
378.1051797076
 20
-147.5906236565
 10
375.5285821733
 20
-150.9132929311
 10
372.8639346041
 20
-154.1106844125
 10
370.1202551084
 20
-157.1719798415
 10
367.3068265298
 20
-160.0868195425
 10
364.4331701046
 20
-162.845338924
 10
361.509007267
 20
-165.4382148625
 10
358.5442346237
 20
-167.8566558149
 10
355.5488824661
 20
-170.0924926892
 10
352.5330867822
 20
-172.1381584998
 10
349.5070520482
 20
-173.9867280985
 10
346.4810173142
 20
-175.6319438363
 10
343.4652216303
 20
-177.0682416067
 10
340.4698694728
 20
-178.2907647203
 10
337.5050968295
 20
-179.2953774001
 10
334.5809339918
 20
-180.0786680102
 10
331.7072775666
 20
-180.6380017147
 10
328.893848988
 20
-180.9714775082
 10
326.1501694924
 20
-181.0779669967
 10
323.4855219231
 20
-180.9571121128
 10
320.9089243888
 20
-180.6093190293
 10
318.4290933845
 20
-180.0357672817
 10
316.0544187672
 20
-179.2383998793
 10
313.7929374141
 20
-178.219911136
 10
311.6523016124
 20
-176.9837466666
 10
309.6397553517
 20
-175.5340896967
 10
307.7621079822
 20
-173.875845851
 10
306.0257105071
 20
-172.0146294624
 10
304.4364397776
 20
-169.9567361943
 10
302.9996747853
 20
-167.7091263076
 10
301.7202755886
 20
-165.2794079293
 10
300.6025727763
 20
-162.6758005485
 10
299.6503490278
 20
-159.9071152434
 10
298.8668180406
 20
-156.9827227391
 10
298.2546456027
 20
-153.9125123453
 10
297.8158916413
 20
-150.7068775015
 10
297.552041833
 20
-147.3766652097
 10
297.4639917981
 20
-143.9331421919
  0
ARC
  5
E2
330
1F
100
AcDbEntity
  8
0
  6
Continuous
 62
     7
370
    25
100
AcDbCircle
 10
453.5234487047
 20
-104.8605792419
 30
0.0
 40
30.17669666452591
100
AcDbArc
 50
51.6923648174
 51
59.9932760785
  0
LWPOLYLINE
  5
E3
330
1F
100
AcDbEntity
  8
0
  6
Continuous
 62
     7
370
    25
100
AcDbPolyline
 90
        3
 70
   128
 43
0.0
 10
382.5820298102
 20
-236.532359019
 10
381.0353089585
 20
-235.8684544972
 10
378.622175342
 20
-234.6173609067
  0
ARC
  5
E4
330
1F
100
AcDbEntity
  8
0
  6
Continuous
 62
     7
370
    25
100
AcDbCircle
 10
452.4818739937
 20
-106.6115100861
 30
0.0
 40
32.20265761289855
100
AcDbArc
 50
37.3285492453
 51
53.4281051229
  0
ARC
  5
E5
330
1F
100
AcDbEntity
  8
0
  6
Continuous
 62
     7
370
    25
100
AcDbCircle
 10
394.6954067971
 20
-206.7177428421
 30
0.0
 40
32.18695569686263
100
AcDbArc
 50
246.5744979457
 51
262.5499235961
  0
ARC
  5
E6
330
1F
100
AcDbEntity
  8
0
  6
Continuous
 62
     7
370
    25
100
AcDbCircle
 10
485.3788815518
 20
-133.6102062521
 30
0.0
 40
29.23984065742134
100
AcDbArc
 50
38.6201856733
 51
46.5813970119
  0
ARC
  5
E7
330
1F
100
AcDbEntity
  8
0
  6
Continuous
 62
     7
370
    25
100
AcDbCircle
 10
434.5535814024
 20
-221.5860425487
 30
0.0
 40
29.34505814180922
100
AcDbArc
 50
253.4408967836
 51
260.8580527826
  0
LWPOLYLINE
  5
E8
330
1F
100
AcDbEntity
  8
0
  6
Continuous
 62
     7
370
    25
100
AcDbPolyline
 90
       58
 70
   128
 43
0.0
 10
569.8160365233
 20
-148.6974544576
 10
571.1849424553
 20
-149.5437393189
 10
573.2654215333
 20
-151.0662352361
 10
575.2116128494
 20
-152.795562938
 10
577.0174999409
 20
-154.7263742853
 10
578.6775009847
 20
-156.8527021622
 10
580.1864793336
 20
-159.1679787292
 10
581.5397777608
 20
-161.6650430307
 10
582.7332131916
 20
-164.3361774969
 10
583.7630925084
 20
-167.173126196
 10
584.6262388925
 20
-170.1671191719
 10
585.319976019
 20
-173.3089036214
 10
585.8421649353
 20
-176.5887682327
 10
586.1911882562
 20
-179.9965766442
 10
586.365971237
 20
-183.5217919714
 10
586.365971237
 20
-187.1535205324
 10
586.1911882562
 20
-190.8805359937
 10
585.8421649353
 20
-194.691318154
 10
585.319976019
 20
-198.5740892549
 10
584.6262388925
 20
-202.5168455415
 10
583.7630925084
 20
-206.5074061199
 10
582.7332131916
 20
-210.533428168
 10
581.5397777608
 20
-214.5824738529
 10
580.1864793336
 20
-218.64202326
 10
578.6775009847
 20
-222.6995291443
 10
577.0174999409
 20
-226.7424534304
 10
575.2116128494
 20
-230.7582976324
 10
573.2654215333
 20
-234.7346499987
 10
571.1849424553
 20
-238.6592159298
 10
568.9766030098
 20
-242.5198681666
 10
566.6472309863
 20
-246.3046741661
 10
564.2040229592
 20
-250.0019386843
 10
561.6545363852
 20
-253.6002235475
 10
559.0066500908
 20
-257.0884130486
 10
556.2685458329
 20
-260.455730675
 10
553.4486872257
 20
-263.6917543167
 10
550.5557933984
 20
-266.786498393
 10
547.5988034341
 20
-269.7303796289
 10
544.5868579306
 20
-272.5143128715
 10
541.5292673902
 20
-275.1296867522
 10
538.4354806094
 20
-277.568418437
 10
535.3150629473
 20
-279.822972256
 10
532.1776576357
 20
-281.8863759546
 10
529.0329628126
 20
-283.7522522028
 10
525.890698348
 20
-285.4148316628
 10
522.7605770325
 20
-286.8689817889
 10
519.6522739552
 20
-288.1102062538
 10
516.5753959632
 20
-289.1346625796
 10
513.5394544149
 20
-289.9391900343
 10
510.5538335696
 20
-290.5212974616
 10
507.6277609529
 20
-290.879186472
 10
504.770281015
 20
-291.0117544827
 10
501.9902248378
 20
-290.9185939537
 10
499.2961877443
 20
-290.5999870627
 10
496.6964963712
 20
-290.0569186301
 10
494.1991849614
 20
-289.2910685119
 10
491.8119742909
 20
-288.304802472
 10
489.8225403082
 20
-287.2652683499
  0
LWPOLYLINE
  5
E9
330
1F
100
AcDbEntity
  8
0
  6
Continuous
 62
     1
370
    25
100
AcDbPolyline
 90
       59
 70
   128
 43
0.0
 10
472.229488216
 20
-81.1811132981
 10
473.0757863974
 20
-81.8739683191
 10
475.1040455301
 20
-83.7554434487
 10
476.9911864772
 20
-85.8367793194
 10
478.7320409816
 20
-88.1122658908
 10
480.3218253758
 20
-90.5756821276
 10
481.7561985344
 20
-93.2202595027
 10
483.0312144589
 20
-96.0387580392
 10
484.1433854974
 20
-99.0234526277
 10
485.0896612718
 20
-102.1661588804
 10
485.8674497509
 20
-105.4582650722
 10
486.4746225189
 20
-108.8907450695
 10
486.9095042386
 20
-112.4541971122
 10
487.1709147981
 20
-116.1388457195
 10
487.2581324327
 20
-119.9345960589
 10
487.1709147981
 20
-123.8310457358
 10
486.9095042386
 20
-127.8175125507
 10
486.4746225189
 20
-131.8830683393
 10
485.8674497509
 20
-136.0165750928
 10
485.0896612718
 20
-140.2066967478
 10
484.1433854974
 20
-144.4419497541
 10
483.0312144589
 20
-148.7107296912
 10
481.7561985344
 20
-153.0013302794
 10
480.3218253758
 20
-157.3019996526
 10
478.7320409816
 20
-161.6009418807
 10
476.9911864772
 20
-165.8863762798
 10
475.1040455301
 20
-170.14655871
 10
473.0757863974
 20
-174.369811988
 10
470.9119671949
 20
-178.5445563066
 10
468.6185200914
 20
-182.6593548603
 10
466.2017302357
 20
-186.7029260116
 10
463.6682252198
 20
-190.6641858752
 10
461.0249434686
 20
-194.5322787339
 10
458.27913424
 20
-198.2966013734
 10
455.4383260149
 20
-201.9468395815
 10
452.510297521
 20
-205.4729787918
 10
449.5030803671
 20
-208.8653694838
 10
446.4249168962
 20
-212.1146967606
 10
443.2842404294
 20
-215.212064758
 10
440.0896634117
 20
-218.1489791532
 10
436.8499392167
 20
-220.9173935494
 10
433.5739483171
 20
-223.5097235426
 10
430.2706699673
 20
-225.9188509021
 10
426.9491594834
 20
-228.1381853556
 10
423.6185195971
 20
-230.1616385406
 10
420.2878797108
 20
-231.9836603151
 10
416.966369227
 20
-233.5992602374
 10
413.6630908772
 20
-235.0040168798
 10
410.3870999776
 20
-236.194065469
 10
407.1473757826
 20
-237.1661570095
 10
403.9527987649
 20
-237.9176227295
 10
400.812122298
 20
-238.446402596
 10
397.7339588272
 20
-238.7510472143
 10
394.7267416732
 20
-238.8307155433
 10
391.7987131793
 20
-238.6852060734
 10
388.9579049542
 20
-238.3148952268
 10
386.2120957256
 20
-237.720816442
 10
383.5688139744
 20
-236.9045917324
 10
382.5820298102
 20
-236.532359019
  0
LWPOLYLINE
  5
EA
330
1F
100
AcDbEntity
  8
0
  6
Continuous
 62
     1
370
    25
100
AcDbPolyline
 90
       53
 70
   128
 43
0.0
 10
478.0885073371
 20
-87.0843114608
 10
478.9770735392
 20
-88.2938593548
 10
480.5662257306
 20
-90.7562838886
 10
482.0000193701
 20
-93.3998087287
 10
483.2745295324
 20
-96.2171786908
 10
484.3862527606
 20
-99.2006808315
 10
485.3321544818
 20
-102.3421292435
 10
486.1096321279
 20
-105.6329182844
 10
486.7165572832
 20
-109.0640286648
 10
487.1512704154
 20
-112.6260525424
 10
487.4125703395
 20
-116.3092315447
 10
487.4997510956
 20
-120.1034651374
 10
487.4125703395
 20
-123.9983554886
 10
487.1512704154
 20
-127.9832249616
 10
486.7165572832
 20
-132.0471579383
 10
486.1096321279
 20
-136.1790091872
 10
485.3321544818
 20
-140.3674548112
 10
484.3862527606
 20
-144.6010181041
 10
483.2745295324
 20
-148.8680885626
 10
482.0000193701
 20
-153.1569766358
 10
480.5662257306
 20
-157.4559243754
 10
478.9770735392
 20
-161.7531449748
 10
477.2369144579
 20
-166.0368699186
 10
475.3505268856
 20
-170.2953489827
 10
473.3230790798
 20
-174.5169110674
 10
471.1601238877
 20
-178.6899885323
 10
468.8675987465
 20
-182.8031415308
 10
466.451773
 20
-186.8450914657
 10
463.9192795084
 20
-190.8047696614
 10
461.2770566968
 20
-194.671314317
 10
458.5323459204
 20
-198.434132864
 10
455.6926703919
 20
-202.0829141315
 10
452.7658167414
 20
-205.6076450748
 10
449.7598007726
 20
-208.99867313
 10
446.6828674629
 20
-212.2467062143
 10
443.543447499
 20
-215.3428317333
 10
440.3501467405
 20
-218.2785774168
 10
437.1117185611
 20
-221.0458847006
 10
433.8370375066
 20
-223.6371726024
 10
430.535080197
 20
-226.045342663
 10
427.2148976682
 20
-228.2637827466
 10
423.8855896882
 20
-230.2864244526
 10
420.5562817081
 20
-232.1077199199
 10
417.2360991793
 20
-233.7226809878
 10
413.9341418697
 20
-235.1268696884
 10
410.6594608152
 20
-236.3164480543
 10
407.4210326358
 20
-237.2881503594
 10
404.2277318773
 20
-238.0393112535
 10
401.0883119134
 20
-238.567882871
 10
398.0113786037
 20
-238.8724013679
 10
395.005362635
 20
-238.9520454749
 10
392.0785089844
 20
-238.8065878267
 10
390.5219731854
 20
-238.6329832284
  0
LWPOLYLINE
  5
EB
330
1F
100
AcDbEntity
  8
0
  6
Continuous
 62
     1
370
    25
100
AcDbPolyline
 90
       50
 70
   128
 43
0.0
 10
508.2239873941
 20
-115.3600166441
 10
509.2706833034
 20
-116.7448204444
 10
510.7803465386
 20
-119.0611343471
 10
512.1342560951
 20
-121.5593211492
 10
513.3282236298
 20
-124.2316571967
 10
514.3585665619
 20
-127.0698835169
 10
515.222097536
 20
-130.0652240691
 10
515.9161507639
 20
-133.2084199674
 10
516.4385714879
 20
-136.4897614195
 10
516.7877528594
 20
-139.8991017983
 10
516.9626148655
 20
-143.4259030782
 10
516.9626148655
 20
-147.0592651135
 10
516.7877528594
 20
-150.7879577683
 10
516.4385714879
 20
-154.6004543773
 10
515.9161507639
 20
-158.4849699584
 10
515.222097536
 20
-162.4295026566
 10
514.3585665619
 20
-166.4218548495
 10
513.3282236298
 20
-170.4496897977
 10
512.1342560951
 20
-174.500551418
 10
510.7803465386
 20
-178.5619289206
 10
509.2706833034
 20
-182.6212628934
 10
507.6099394214
 20
-186.6660061371
 10
505.803241003
 20
-190.6836571228
 10
503.8561751398
 20
-194.6617949738
 10
501.7747582944
 20
-198.5881281327
 10
499.5654257639
 20
-202.4505186945
 10
497.2350053375
 20
-206.2370280325
 10
494.7906988581
 20
-209.9359517776
 10
492.2400664166
 20
-213.5358593612
 10
489.5909868396
 20
-217.0256198666
 10
486.8516524206
 20
-220.394444615
 10
484.0305241396
 20
-223.6319312681
 10
481.1363290283
 20
-226.7280653485
 10
478.1780088041
 20
-229.6732742278
 10
475.1647093331
 20
-232.4584575444
 10
472.1057424346
 20
-235.0750092529
 10
469.0105648079
 20
-237.5148358738
 10
465.8887431289
 20
-239.7704009767
 10
462.7499265564
 20
-241.8347349692
 10
459.6038170974
 20
-243.7014461205
 10
456.4601391493
 20
-245.3647807301
 10
453.328610195
 20
-246.8195792088
 10
450.2189083691
 20
-248.0613617223
 10
447.1406467751
 20
-249.0862821808
 10
444.1033394055
 20
-249.8911661645
 10
441.1163751294
 20
-250.4735381068
 10
438.1889854236
 20
-250.8315912536
 10
435.3302200069
 20
-250.9642199807
 10
432.5489152293
 20
-250.8710137067
 10
429.8912113534
 20
-250.558352482
  0
LWPOLYLINE
  5
EC
330
1F
100
AcDbEntity
  8
0
  6
Continuous
 62
     1
370
    25
100
AcDbPolyline
 90
       54
 70
   128
 43
0.0
 10
504.6674413875
 20
-111.6078678353
 10
506.049892263
 20
-112.8693514968
 10
507.8557793546
 20
-114.8001628441
 10
509.5157803984
 20
-116.926490721
 10
511.0247587473
 20
-119.241767288
 10
512.3780571745
 20
-121.7388315895
 10
513.5714926052
 20
-124.4099660557
 10
514.601371922
 20
-127.2469147548
 10
515.4645183061
 20
-130.2409077306
 10
516.1582554326
 20
-133.3826921802
 10
516.6804443489
 20
-136.6625567915
 10
517.0294676698
 20
-140.070365203
 10
517.2042506506
 20
-143.5955805302
 10
517.2042506506
 20
-147.2273090912
 10
517.0294676698
 20
-150.9543245525
 10
516.6804443489
 20
-154.7651067128
 10
516.1582554326
 20
-158.6478778137
 10
515.4645183061
 20
-162.5906341003
 10
514.601371922
 20
-166.5811946787
 10
513.5714926052
 20
-170.6072167268
 10
512.3780571745
 20
-174.6562624117
 10
511.0247587473
 20
-178.7158118188
 10
509.5157803984
 20
-182.7733177031
 10
507.8557793546
 20
-186.8162419892
 10
506.049892263
 20
-190.8320861912
 10
504.1037009469
 20
-194.8084385575
 10
502.0232218689
 20
-198.7330044886
 10
499.8148824235
 20
-202.5936567254
 10
497.4855104
 20
-206.3784627249
 10
495.0423023728
 20
-210.0757272431
 10
492.4928157988
 20
-213.6740121063
 10
489.8449295044
 20
-217.1622016073
 10
487.1068252466
 20
-220.5295192338
 10
484.2869666393
 20
-223.7655428755
 10
481.394072812
 20
-226.8602869518
 10
478.4370828477
 20
-229.8041681877
 10
475.4251373442
 20
-232.5881014303
 10
472.3675468038
 20
-235.203475311
 10
469.273760023
 20
-237.6422069958
 10
466.1533423609
 20
-239.8967608148
 10
463.0159370493
 20
-241.9601645134
 10
459.8712422262
 20
-243.8260407616
 10
456.7289777616
 20
-245.4886202216
 10
453.5988564462
 20
-246.9427703477
 10
450.4905533688
 20
-248.1839948126
 10
447.4136753768
 20
-249.2084511384
 10
444.3777338286
 20
-250.0129785931
 10
441.3921129832
 20
-250.5950860204
 10
438.4660403665
 20
-250.9529750308
 10
435.6085604286
 20
-251.0855430415
 10
432.8285042515
 20
-250.9923825125
 10
430.1344671579
 20
-250.6737756215
 10
427.5347757848
 20
-250.1307071889
 10
425.1241657108
 20
-249.395791711
  0
ENDSEC
  0
SECTION
  2
OBJECTS
  0
DICTIONARY
  5
C
330
0
100
AcDbDictionary
281
     1
  3
ACAD_GROUP
350
D
  3
ACAD_LAYOUT
350
1A
  3
ACAD_MLINESTYLE
350
17
  3
ACAD_PLOTSETTINGS
350
19
  3
ACAD_PLOTSTYLENAME
350
E
  3
ACAD_SCALELIST
350
47
  0
DICTIONARY
  5
D
102
{ACAD_REACTORS
330
C
102
}
330
C
100
AcDbDictionary
281
     1
  0
DICTIONARY
  5
1A
102
{ACAD_REACTORS
330
C
102
}
330
C
100
AcDbDictionary
281
     1
  3
Layout1
350
1E
  3
Layout2
350
26
  3
Model
350
22
  0
DICTIONARY
  5
17
102
{ACAD_REACTORS
330
C
102
}
330
C
100
AcDbDictionary
281
     1
  3
Standard
350
18
  0
DICTIONARY
  5
19
102
{ACAD_REACTORS
330
C
102
}
330
C
100
AcDbDictionary
281
     1
  0
ACDBDICTIONARYWDFLT
  5
E
102
{ACAD_REACTORS
330
C
102
}
330
C
100
AcDbDictionary
281
     1
  3
Normal
350
F
100
AcDbDictionaryWithDefault
340
F
  0
DICTIONARY
  5
47
102
{ACAD_REACTORS
330
C
102
}
330
C
100
AcDbDictionary
281
     1
  3
A0
350
48
  3
A1
350
49
  3
A2
350
4A
  3
A3
350
4B
  3
A4
350
4C
  3
A5
350
4D
  3
A6
350
4E
  3
A7
350
4F
  3
A8
350
50
  3
A9
350
51
  3
B0
350
52
  3
B1
350
53
  3
B2
350
54
  3
B3
350
55
  3
B4
350
56
  3
B5
350
57
  3
B6
350
58
  3
B7
350
59
  3
B8
350
5A
  3
B9
350
5B
  3
C0
350
5C
  3
C1
350
5D
  3
C2
350
5E
  3
C3
350
5F
  3
C4
350
60
  3
C5
350
61
  3
C6
350
62
  3
C7
350
63
  3
C8
350
64
  3
C9
350
65
  3
D0
350
66
  3
D1
350
67
  3
D2
350
68
  0
LAYOUT
  5
1E
102
{ACAD_REACTORS
330
1A
102
}
330
1A
100
AcDbPlotSettings
  1

  2
none_device
  4

  6

 40
0.0
 41
0.0
 42
0.0
 43
0.0
 44
0.0
 45
0.0
 46
0.0
 47
0.0
 48
0.0
 49
0.0
140
0.0
141
0.0
142
1.0
143
1.0
 70
   688
 72
     1
 73
     0
 74
     5
  7

 75
    16
147
1.0
148
0.0
149
0.0
100
AcDbLayout
  1
Layout1
 70
     1
 71
     1
 10
0.0
 20
0.0
 11
420.0
 21
297.0
 12
0.0
 22
0.0
 32
0.0
 14
1.0000000000E+20
 24
1.0000000000E+20
 34
1.0000000000E+20
 15
-1.0000000000E+20
 25
-1.0000000000E+20
 35
-1.0000000000E+20
146
0.0
 13
0.0
 23
0.0
 33
0.0
 16
1.0
 26
0.0
 36
0.0
 17
0.0
 27
1.0
 37
0.0
 76
     0
330
1B
  0
LAYOUT
  5
26
102
{ACAD_REACTORS
330
1A
102
}
330
1A
100
AcDbPlotSettings
  1

  2
none_device
  4

  6

 40
0.0
 41
0.0
 42
0.0
 43
0.0
 44
0.0
 45
0.0
 46
0.0
 47
0.0
 48
0.0
 49
0.0
140
0.0
141
0.0
142
1.0
143
1.0
 70
   688
 72
     1
 73
     0
 74
     5
  7

 75
    16
147
1.0
148
0.0
149
0.0
100
AcDbLayout
  1
Layout2
 70
     1
 71
     2
 10
0.0
 20
0.0
 11
0.0
 21
0.0
 12
0.0
 22
0.0
 32
0.0
 14
0.0
 24
0.0
 34
0.0
 15
0.0
 25
0.0
 35
0.0
146
0.0
 13
0.0
 23
0.0
 33
0.0
 16
1.0
 26
0.0
 36
0.0
 17
0.0
 27
1.0
 37
0.0
 76
     0
330
23
  0
LAYOUT
  5
22
102
{ACAD_REACTORS
330
1A
102
}
330
1A
100
AcDbPlotSettings
  1

  2
none_device
  4
Letter_(8.50_x_11.00_Inches)
  6

 40
6.35
 41
6.35
 42
6.35000508
 43
6.35000508
 44
215.9
 45
279.4
 46
0.0
 47
0.0
 48
0.0
 49
0.0
140
0.0
141
0.0
142
1.0
143
1.0
 70
  1712
 72
     1
 73
     0
 74
     0
  7

 75
     0
147
1.0
148
0.0
149
0.0
100
AcDbLayout
  1
Model
 70
     1
 71
     0
 10
0.0
 20
0.0
 11
279.4
 21
215.9
 12
0.0
 22
0.0
 32
0.0
 14
0.0
 24
0.0
 34
0.0
 15
279.4
 25
215.9
 35
0.0
146
0.0
 13
0.0
 23
0.0
 33
0.0
 16
1.0
 26
0.0
 36
0.0
 17
0.0
 27
1.0
 37
0.0
 76
     0
330
1F
331
29
  0
MLINESTYLE
  5
18
102
{ACAD_REACTORS
330
17
102
}
330
17
100
AcDbMlineStyle
  2
Standard
 70
     0
  3

 62
   256
 51
90.0
 52
90.0
 71
     2
 49
0.5
 62
   256
  6
BYLAYER
 49
-0.5
 62
   256
  6
BYLAYER
  0
ACDBPLACEHOLDER
  5
F
102
{ACAD_REACTORS
330
E
102
}
330
E
  0
SCALE
  5
48
102
{ACAD_REACTORS
330
47
102
}
330
47
100
AcDbScale
 70
     0
300
1:1
140
1.0
141
1.0
290
     1
  0
SCALE
  5
49
102
{ACAD_REACTORS
330
47
102
}
330
47
100
AcDbScale
 70
     0
300
1:2
140
1.0
141
2.0
290
     0
  0
SCALE
  5
4A
102
{ACAD_REACTORS
330
47
102
}
330
47
100
AcDbScale
 70
     0
300
1:4
140
1.0
141
4.0
290
     0
  0
SCALE
  5
4B
102
{ACAD_REACTORS
330
47
102
}
330
47
100
AcDbScale
 70
     0
300
1:5
140
1.0
141
5.0
290
     0
  0
SCALE
  5
4C
102
{ACAD_REACTORS
330
47
102
}
330
47
100
AcDbScale
 70
     0
300
1:8
140
1.0
141
8.0
290
     0
  0
SCALE
  5
4D
102
{ACAD_REACTORS
330
47
102
}
330
47
100
AcDbScale
 70
     0
300
1:10
140
1.0
141
10.0
290
     0
  0
SCALE
  5
4E
102
{ACAD_REACTORS
330
47
102
}
330
47
100
AcDbScale
 70
     0
300
1:16
140
1.0
141
16.0
290
     0
  0
SCALE
  5
4F
102
{ACAD_REACTORS
330
47
102
}
330
47
100
AcDbScale
 70
     0
300
1:20
140
1.0
141
20.0
290
     0
  0
SCALE
  5
50
102
{ACAD_REACTORS
330
47
102
}
330
47
100
AcDbScale
 70
     0
300
1:30
140
1.0
141
30.0
290
     0
  0
SCALE
  5
51
102
{ACAD_REACTORS
330
47
102
}
330
47
100
AcDbScale
 70
     0
300
1:40
140
1.0
141
40.0
290
     0
  0
SCALE
  5
52
102
{ACAD_REACTORS
330
47
102
}
330
47
100
AcDbScale
 70
     0
300
1:50
140
1.0
141
50.0
290
     0
  0
SCALE
  5
53
102
{ACAD_REACTORS
330
47
102
}
330
47
100
AcDbScale
 70
     0
300
1:100
140
1.0
141
100.0
290
     0
  0
SCALE
  5
54
102
{ACAD_REACTORS
330
47
102
}
330
47
100
AcDbScale
 70
     0
300
2:1
140
2.0
141
1.0
290
     0
  0
SCALE
  5
55
102
{ACAD_REACTORS
330
47
102
}
330
47
100
AcDbScale
 70
     0
300
4:1
140
4.0
141
1.0
290
     0
  0
SCALE
  5
56
102
{ACAD_REACTORS
330
47
102
}
330
47
100
AcDbScale
 70
     0
300
8:1
140
8.0
141
1.0
290
     0
  0
SCALE
  5
57
102
{ACAD_REACTORS
330
47
102
}
330
47
100
AcDbScale
 70
     0
300
10:1
140
10.0
141
1.0
290
     0
  0
SCALE
  5
58
102
{ACAD_REACTORS
330
47
102
}
330
47
100
AcDbScale
 70
     0
300
100:1
140
100.0
141
1.0
290
     0
  0
SCALE
  5
59
102
{ACAD_REACTORS
330
47
102
}
330
47
100
AcDbScale
 70
     0
300
1/128" = 1'-0"
140
0.0078125
141
12.0
290
     0
  0
SCALE
  5
5A
102
{ACAD_REACTORS
330
47
102
}
330
47
100
AcDbScale
 70
     0
300
1/64" = 1'-0"
140
0.015625
141
12.0
290
     0
  0
SCALE
  5
5B
102
{ACAD_REACTORS
330
47
102
}
330
47
100
AcDbScale
 70
     0
300
1/32" = 1'-0"
140
0.03125
141
12.0
290
     0
  0
SCALE
  5
5C
102
{ACAD_REACTORS
330
47
102
}
330
47
100
AcDbScale
 70
     0
300
1/16" = 1'-0"
140
0.0625
141
12.0
290
     0
  0
SCALE
  5
5D
102
{ACAD_REACTORS
330
47
102
}
330
47
100
AcDbScale
 70
     0
300
3/32" = 1'-0"
140
0.09375
141
12.0
290
     0
  0
SCALE
  5
5E
102
{ACAD_REACTORS
330
47
102
}
330
47
100
AcDbScale
 70
     0
300
1/8" = 1'-0"
140
0.125
141
12.0
290
     0
  0
SCALE
  5
5F
102
{ACAD_REACTORS
330
47
102
}
330
47
100
AcDbScale
 70
     0
300
3/16" = 1'-0"
140
0.1875
141
12.0
290
     0
  0
SCALE
  5
60
102
{ACAD_REACTORS
330
47
102
}
330
47
100
AcDbScale
 70
     0
300
1/4" = 1'-0"
140
0.25
141
12.0
290
     0
  0
SCALE
  5
61
102
{ACAD_REACTORS
330
47
102
}
330
47
100
AcDbScale
 70
     0
300
3/8" = 1'-0"
140
0.375
141
12.0
290
     0
  0
SCALE
  5
62
102
{ACAD_REACTORS
330
47
102
}
330
47
100
AcDbScale
 70
     0
300
1/2" = 1'-0"
140
0.5
141
12.0
290
     0
  0
SCALE
  5
63
102
{ACAD_REACTORS
330
47
102
}
330
47
100
AcDbScale
 70
     0
300
3/4" = 1'-0"
140
0.75
141
12.0
290
     0
  0
SCALE
  5
64
102
{ACAD_REACTORS
330
47
102
}
330
47
100
AcDbScale
 70
     0
300
1" = 1'-0"
140
1.0
141
12.0
290
     0
  0
SCALE
  5
65
102
{ACAD_REACTORS
330
47
102
}
330
47
100
AcDbScale
 70
     0
300
1-1/2" = 1'-0"
140
1.5
141
12.0
290
     0
  0
SCALE
  5
66
102
{ACAD_REACTORS
330
47
102
}
330
47
100
AcDbScale
 70
     0
300
3" = 1'-0"
140
3.0
141
12.0
290
     0
  0
SCALE
  5
67
102
{ACAD_REACTORS
330
47
102
}
330
47
100
AcDbScale
 70
     0
300
6" = 1'-0"
140
6.0
141
12.0
290
     0
  0
SCALE
  5
68
102
{ACAD_REACTORS
330
47
102
}
330
47
100
AcDbScale
 70
     0
300
1'-0" = 1'-0"
140
12.0
141
12.0
290
     0
  0
ENDSEC
  0
EOF
